ISO-10303-21;
HEADER;
/* Generated by software containing ST-Developer
 * from STEP Tools, Inc. (www.steptools.com) 
 */
/* OPTION: using custom schema-name function */

FILE_DESCRIPTION(
/* description */ (''),
/* implementation_level */ '2;1');

FILE_NAME(
/* name */ 'EX-FD41.stp',
/* time_stamp */ '2023-04-10T10:15:59+08:00',
/* author */ (''),
/* organization */ (''),
/* preprocessor_version */ 'ST-DEVELOPER v16.7',
/* originating_system */ 'SIEMENS PLM Software NX 12.0',
/* authorisation */ '');

FILE_SCHEMA (('AUTOMOTIVE_DESIGN { 1 0 10303 214 3 1 1 1 }'));
ENDSEC;

DATA;
#10=SHAPE_REPRESENTATION_RELATIONSHIP('None',
'relationship between EX-FD41-None and EX-FD41-None',#22,#11);
#11=ADVANCED_BREP_SHAPE_REPRESENTATION('EX-FD41-None',(#32),#495);
#12=SHAPE_DEFINITION_REPRESENTATION(#13,#22);
#13=PRODUCT_DEFINITION_SHAPE('','',#14);
#14=PRODUCT_DEFINITION(' ','',#16,#15);
#15=PRODUCT_DEFINITION_CONTEXT('part definition',#21,'design');
#16=PRODUCT_DEFINITION_FORMATION_WITH_SPECIFIED_SOURCE(' ',' ',#18,
 .NOT_KNOWN.);
#17=PRODUCT_RELATED_PRODUCT_CATEGORY('part','',(#18));
#18=PRODUCT('EX-FD41','EX-FD41',' ',(#19));
#19=PRODUCT_CONTEXT(' ',#21,'mechanical');
#20=APPLICATION_PROTOCOL_DEFINITION('international standard',
'automotive_design',2010,#21);
#21=APPLICATION_CONTEXT(
'core data for automotive mechanical design processes');
#22=SHAPE_REPRESENTATION('EX-FD41-None',(#298),#495);
#23=PRESENTATION_LAYER_ASSIGNMENT('1','Layer 1',(#32));
#24=STYLED_ITEM('',(#25),#32);
#25=PRESENTATION_STYLE_ASSIGNMENT((#26));
#26=SURFACE_STYLE_USAGE(.BOTH.,#27);
#27=SURFACE_SIDE_STYLE('',(#28));
#28=SURFACE_STYLE_FILL_AREA(#29);
#29=FILL_AREA_STYLE('',(#30));
#30=FILL_AREA_STYLE_COLOUR('',#31);
#31=COLOUR_RGB('Orange',1.,0.6,0.);
#32=MANIFOLD_SOLID_BREP('',#33);
#33=CLOSED_SHELL('',(#50,#51,#52,#53,#54,#55,#56,#57,#58,#59,#60,#61,#62,
#63,#64,#65,#66,#67,#68));
#34=CYLINDRICAL_SURFACE('',#314,1.8);
#35=CYLINDRICAL_SURFACE('',#318,1.8);
#36=CYLINDRICAL_SURFACE('',#321,1.05);
#37=CYLINDRICAL_SURFACE('',#322,1.05);
#38=CYLINDRICAL_SURFACE('',#324,0.25);
#39=CYLINDRICAL_SURFACE('',#327,0.25);
#40=CYLINDRICAL_SURFACE('',#330,0.5);
#41=CYLINDRICAL_SURFACE('',#333,0.5);
#42=FACE_OUTER_BOUND('',#136,.T.);
#43=FACE_OUTER_BOUND('',#137,.T.);
#44=FACE_OUTER_BOUND('',#138,.T.);
#45=FACE_OUTER_BOUND('',#161,.T.);
#46=FACE_OUTER_BOUND('',#164,.T.);
#47=FACE_OUTER_BOUND('',#165,.T.);
#48=FACE_OUTER_BOUND('',#166,.T.);
#49=FACE_OUTER_BOUND('',#167,.T.);
#50=ADVANCED_FACE('',(#108,#109),#69,.T.);
#51=ADVANCED_FACE('',(#42),#70,.T.);
#52=ADVANCED_FACE('',(#43),#71,.T.);
#53=ADVANCED_FACE('',(#44),#72,.T.);
#54=ADVANCED_FACE('',(#110,#111,#112),#73,.F.);
#55=ADVANCED_FACE('',(#113,#114,#115,#116,#117),#74,.T.);
#56=ADVANCED_FACE('',(#118,#119),#34,.F.);
#57=ADVANCED_FACE('',(#120,#121),#75,.T.);
#58=ADVANCED_FACE('',(#122,#123),#35,.F.);
#59=ADVANCED_FACE('',(#124,#125),#76,.T.);
#60=ADVANCED_FACE('',(#126,#127),#36,.F.);
#61=ADVANCED_FACE('',(#128,#129),#37,.F.);
#62=ADVANCED_FACE('',(#130,#131),#38,.F.);
#63=ADVANCED_FACE('',(#45),#77,.T.);
#64=ADVANCED_FACE('',(#132,#133),#39,.F.);
#65=ADVANCED_FACE('',(#46),#78,.T.);
#66=ADVANCED_FACE('',(#47),#40,.T.);
#67=ADVANCED_FACE('',(#48),#79,.T.);
#68=ADVANCED_FACE('',(#49),#41,.T.);
#69=PLANE('',#301);
#70=PLANE('',#302);
#71=PLANE('',#303);
#72=PLANE('',#304);
#73=PLANE('',#307);
#74=PLANE('',#312);
#75=PLANE('',#316);
#76=PLANE('',#320);
#77=PLANE('',#325);
#78=PLANE('',#328);
#79=PLANE('',#332);
#80=LINE('',#425,#94);
#81=LINE('',#428,#95);
#82=LINE('',#430,#96);
#83=LINE('',#432,#97);
#84=LINE('',#434,#98);
#85=LINE('',#436,#99);
#86=LINE('',#438,#100);
#87=LINE('',#440,#101);
#88=LINE('',#442,#102);
#89=LINE('',#444,#103);
#90=LINE('',#446,#104);
#91=LINE('',#447,#105);
#92=LINE('',#485,#106);
#93=LINE('',#489,#107);
#94=VECTOR('',#340,1.);
#95=VECTOR('',#341,1.);
#96=VECTOR('',#342,1.);
#97=VECTOR('',#343,1.);
#98=VECTOR('',#346,1.);
#99=VECTOR('',#347,1.);
#100=VECTOR('',#348,1.);
#101=VECTOR('',#351,1.);
#102=VECTOR('',#352,1.);
#103=VECTOR('',#353,1.);
#104=VECTOR('',#356,1.);
#105=VECTOR('',#357,1.);
#106=VECTOR('',#408,1.);
#107=VECTOR('',#411,1.);
#108=FACE_BOUND('',#134,.T.);
#109=FACE_BOUND('',#135,.T.);
#110=FACE_BOUND('',#139,.T.);
#111=FACE_BOUND('',#140,.T.);
#112=FACE_BOUND('',#141,.T.);
#113=FACE_BOUND('',#142,.T.);
#114=FACE_BOUND('',#143,.T.);
#115=FACE_BOUND('',#144,.T.);
#116=FACE_BOUND('',#145,.T.);
#117=FACE_BOUND('',#146,.T.);
#118=FACE_BOUND('',#147,.T.);
#119=FACE_BOUND('',#148,.T.);
#120=FACE_BOUND('',#149,.T.);
#121=FACE_BOUND('',#150,.T.);
#122=FACE_BOUND('',#151,.T.);
#123=FACE_BOUND('',#152,.T.);
#124=FACE_BOUND('',#153,.T.);
#125=FACE_BOUND('',#154,.T.);
#126=FACE_BOUND('',#155,.T.);
#127=FACE_BOUND('',#156,.T.);
#128=FACE_BOUND('',#157,.T.);
#129=FACE_BOUND('',#158,.T.);
#130=FACE_BOUND('',#159,.T.);
#131=FACE_BOUND('',#160,.T.);
#132=FACE_BOUND('',#162,.T.);
#133=FACE_BOUND('',#163,.T.);
#134=EDGE_LOOP('',(#168,#169));
#135=EDGE_LOOP('',(#170,#171,#172,#173));
#136=EDGE_LOOP('',(#174,#175,#176,#177));
#137=EDGE_LOOP('',(#178,#179,#180,#181));
#138=EDGE_LOOP('',(#182,#183,#184,#185));
#139=EDGE_LOOP('',(#186));
#140=EDGE_LOOP('',(#187));
#141=EDGE_LOOP('',(#188,#189,#190,#191));
#142=EDGE_LOOP('',(#192));
#143=EDGE_LOOP('',(#193));
#144=EDGE_LOOP('',(#194));
#145=EDGE_LOOP('',(#195));
#146=EDGE_LOOP('',(#196,#197,#198,#199));
#147=EDGE_LOOP('',(#200));
#148=EDGE_LOOP('',(#201));
#149=EDGE_LOOP('',(#202));
#150=EDGE_LOOP('',(#203));
#151=EDGE_LOOP('',(#204));
#152=EDGE_LOOP('',(#205));
#153=EDGE_LOOP('',(#206));
#154=EDGE_LOOP('',(#207));
#155=EDGE_LOOP('',(#208));
#156=EDGE_LOOP('',(#209));
#157=EDGE_LOOP('',(#210));
#158=EDGE_LOOP('',(#211));
#159=EDGE_LOOP('',(#212));
#160=EDGE_LOOP('',(#213));
#161=EDGE_LOOP('',(#214));
#162=EDGE_LOOP('',(#215));
#163=EDGE_LOOP('',(#216));
#164=EDGE_LOOP('',(#217));
#165=EDGE_LOOP('',(#218,#219,#220,#221));
#166=EDGE_LOOP('',(#222,#223));
#167=EDGE_LOOP('',(#224,#225,#226,#227));
#168=ORIENTED_EDGE('',*,*,#252,.F.);
#169=ORIENTED_EDGE('',*,*,#253,.F.);
#170=ORIENTED_EDGE('',*,*,#254,.F.);
#171=ORIENTED_EDGE('',*,*,#255,.F.);
#172=ORIENTED_EDGE('',*,*,#256,.T.);
#173=ORIENTED_EDGE('',*,*,#257,.T.);
#174=ORIENTED_EDGE('',*,*,#258,.F.);
#175=ORIENTED_EDGE('',*,*,#257,.F.);
#176=ORIENTED_EDGE('',*,*,#259,.T.);
#177=ORIENTED_EDGE('',*,*,#260,.T.);
#178=ORIENTED_EDGE('',*,*,#261,.F.);
#179=ORIENTED_EDGE('',*,*,#260,.F.);
#180=ORIENTED_EDGE('',*,*,#262,.T.);
#181=ORIENTED_EDGE('',*,*,#263,.T.);
#182=ORIENTED_EDGE('',*,*,#264,.F.);
#183=ORIENTED_EDGE('',*,*,#263,.F.);
#184=ORIENTED_EDGE('',*,*,#265,.T.);
#185=ORIENTED_EDGE('',*,*,#255,.T.);
#186=ORIENTED_EDGE('',*,*,#266,.T.);
#187=ORIENTED_EDGE('',*,*,#267,.T.);
#188=ORIENTED_EDGE('',*,*,#256,.F.);
#189=ORIENTED_EDGE('',*,*,#265,.F.);
#190=ORIENTED_EDGE('',*,*,#262,.F.);
#191=ORIENTED_EDGE('',*,*,#259,.F.);
#192=ORIENTED_EDGE('',*,*,#268,.F.);
#193=ORIENTED_EDGE('',*,*,#269,.F.);
#194=ORIENTED_EDGE('',*,*,#270,.F.);
#195=ORIENTED_EDGE('',*,*,#271,.F.);
#196=ORIENTED_EDGE('',*,*,#254,.T.);
#197=ORIENTED_EDGE('',*,*,#258,.T.);
#198=ORIENTED_EDGE('',*,*,#261,.T.);
#199=ORIENTED_EDGE('',*,*,#264,.T.);
#200=ORIENTED_EDGE('',*,*,#272,.T.);
#201=ORIENTED_EDGE('',*,*,#271,.T.);
#202=ORIENTED_EDGE('',*,*,#273,.F.);
#203=ORIENTED_EDGE('',*,*,#272,.F.);
#204=ORIENTED_EDGE('',*,*,#274,.T.);
#205=ORIENTED_EDGE('',*,*,#270,.T.);
#206=ORIENTED_EDGE('',*,*,#275,.F.);
#207=ORIENTED_EDGE('',*,*,#274,.F.);
#208=ORIENTED_EDGE('',*,*,#275,.T.);
#209=ORIENTED_EDGE('',*,*,#266,.F.);
#210=ORIENTED_EDGE('',*,*,#273,.T.);
#211=ORIENTED_EDGE('',*,*,#267,.F.);
#212=ORIENTED_EDGE('',*,*,#276,.T.);
#213=ORIENTED_EDGE('',*,*,#269,.T.);
#214=ORIENTED_EDGE('',*,*,#276,.F.);
#215=ORIENTED_EDGE('',*,*,#277,.T.);
#216=ORIENTED_EDGE('',*,*,#268,.T.);
#217=ORIENTED_EDGE('',*,*,#277,.F.);
#218=ORIENTED_EDGE('',*,*,#278,.F.);
#219=ORIENTED_EDGE('',*,*,#279,.F.);
#220=ORIENTED_EDGE('',*,*,#280,.F.);
#221=ORIENTED_EDGE('',*,*,#252,.T.);
#222=ORIENTED_EDGE('',*,*,#279,.T.);
#223=ORIENTED_EDGE('',*,*,#281,.T.);
#224=ORIENTED_EDGE('',*,*,#281,.F.);
#225=ORIENTED_EDGE('',*,*,#278,.T.);
#226=ORIENTED_EDGE('',*,*,#253,.T.);
#227=ORIENTED_EDGE('',*,*,#280,.T.);
#228=VERTEX_POINT('',#422);
#229=VERTEX_POINT('',#423);
#230=VERTEX_POINT('',#426);
#231=VERTEX_POINT('',#427);
#232=VERTEX_POINT('',#429);
#233=VERTEX_POINT('',#431);
#234=VERTEX_POINT('',#435);
#235=VERTEX_POINT('',#437);
#236=VERTEX_POINT('',#441);
#237=VERTEX_POINT('',#443);
#238=VERTEX_POINT('',#450);
#239=VERTEX_POINT('',#452);
#240=VERTEX_POINT('',#455);
#241=VERTEX_POINT('',#457);
#242=VERTEX_POINT('',#459);
#243=VERTEX_POINT('',#461);
#244=VERTEX_POINT('',#464);
#245=VERTEX_POINT('',#467);
#246=VERTEX_POINT('',#470);
#247=VERTEX_POINT('',#473);
#248=VERTEX_POINT('',#478);
#249=VERTEX_POINT('',#482);
#250=VERTEX_POINT('',#486);
#251=VERTEX_POINT('',#488);
#252=EDGE_CURVE('',#228,#229,#282,.T.);
#253=EDGE_CURVE('',#229,#228,#283,.T.);
#254=EDGE_CURVE('',#230,#231,#80,.T.);
#255=EDGE_CURVE('',#232,#230,#81,.T.);
#256=EDGE_CURVE('',#232,#233,#82,.T.);
#257=EDGE_CURVE('',#233,#231,#83,.T.);
#258=EDGE_CURVE('',#231,#234,#84,.T.);
#259=EDGE_CURVE('',#233,#235,#85,.T.);
#260=EDGE_CURVE('',#235,#234,#86,.T.);
#261=EDGE_CURVE('',#234,#236,#87,.T.);
#262=EDGE_CURVE('',#235,#237,#88,.T.);
#263=EDGE_CURVE('',#237,#236,#89,.T.);
#264=EDGE_CURVE('',#236,#230,#90,.T.);
#265=EDGE_CURVE('',#237,#232,#91,.T.);
#266=EDGE_CURVE('',#238,#238,#284,.T.);
#267=EDGE_CURVE('',#239,#239,#285,.T.);
#268=EDGE_CURVE('',#240,#240,#286,.T.);
#269=EDGE_CURVE('',#241,#241,#287,.T.);
#270=EDGE_CURVE('',#242,#242,#288,.T.);
#271=EDGE_CURVE('',#243,#243,#289,.T.);
#272=EDGE_CURVE('',#244,#244,#290,.T.);
#273=EDGE_CURVE('',#245,#245,#291,.T.);
#274=EDGE_CURVE('',#246,#246,#292,.T.);
#275=EDGE_CURVE('',#247,#247,#293,.T.);
#276=EDGE_CURVE('',#248,#248,#294,.T.);
#277=EDGE_CURVE('',#249,#249,#295,.T.);
#278=EDGE_CURVE('',#250,#229,#92,.T.);
#279=EDGE_CURVE('',#251,#250,#296,.T.);
#280=EDGE_CURVE('',#228,#251,#93,.T.);
#281=EDGE_CURVE('',#250,#251,#297,.T.);
#282=CIRCLE('',#299,0.5);
#283=CIRCLE('',#300,0.5);
#284=CIRCLE('',#305,1.05);
#285=CIRCLE('',#306,1.05);
#286=CIRCLE('',#308,0.25);
#287=CIRCLE('',#309,0.25);
#288=CIRCLE('',#310,1.8);
#289=CIRCLE('',#311,1.8);
#290=CIRCLE('',#313,1.8);
#291=CIRCLE('',#315,1.05);
#292=CIRCLE('',#317,1.8);
#293=CIRCLE('',#319,1.05);
#294=CIRCLE('',#323,0.25);
#295=CIRCLE('',#326,0.25);
#296=CIRCLE('',#329,0.5);
#297=CIRCLE('',#331,0.5);
#298=AXIS2_PLACEMENT_3D('',#420,#334,#335);
#299=AXIS2_PLACEMENT_3D('',#421,#336,#337);
#300=AXIS2_PLACEMENT_3D('',#424,#338,#339);
#301=AXIS2_PLACEMENT_3D('',#433,#344,#345);
#302=AXIS2_PLACEMENT_3D('',#439,#349,#350);
#303=AXIS2_PLACEMENT_3D('',#445,#354,#355);
#304=AXIS2_PLACEMENT_3D('',#448,#358,#359);
#305=AXIS2_PLACEMENT_3D('',#449,#360,#361);
#306=AXIS2_PLACEMENT_3D('',#451,#362,#363);
#307=AXIS2_PLACEMENT_3D('',#453,#364,#365);
#308=AXIS2_PLACEMENT_3D('',#454,#366,#367);
#309=AXIS2_PLACEMENT_3D('',#456,#368,#369);
#310=AXIS2_PLACEMENT_3D('',#458,#370,#371);
#311=AXIS2_PLACEMENT_3D('',#460,#372,#373);
#312=AXIS2_PLACEMENT_3D('',#462,#374,#375);
#313=AXIS2_PLACEMENT_3D('',#463,#376,#377);
#314=AXIS2_PLACEMENT_3D('',#465,#378,#379);
#315=AXIS2_PLACEMENT_3D('',#466,#380,#381);
#316=AXIS2_PLACEMENT_3D('',#468,#382,#383);
#317=AXIS2_PLACEMENT_3D('',#469,#384,#385);
#318=AXIS2_PLACEMENT_3D('',#471,#386,#387);
#319=AXIS2_PLACEMENT_3D('',#472,#388,#389);
#320=AXIS2_PLACEMENT_3D('',#474,#390,#391);
#321=AXIS2_PLACEMENT_3D('',#475,#392,#393);
#322=AXIS2_PLACEMENT_3D('',#476,#394,#395);
#323=AXIS2_PLACEMENT_3D('',#477,#396,#397);
#324=AXIS2_PLACEMENT_3D('',#479,#398,#399);
#325=AXIS2_PLACEMENT_3D('',#480,#400,#401);
#326=AXIS2_PLACEMENT_3D('',#481,#402,#403);
#327=AXIS2_PLACEMENT_3D('',#483,#404,#405);
#328=AXIS2_PLACEMENT_3D('',#484,#406,#407);
#329=AXIS2_PLACEMENT_3D('',#487,#409,#410);
#330=AXIS2_PLACEMENT_3D('',#490,#412,#413);
#331=AXIS2_PLACEMENT_3D('',#491,#414,#415);
#332=AXIS2_PLACEMENT_3D('',#492,#416,#417);
#333=AXIS2_PLACEMENT_3D('',#493,#418,#419);
#334=DIRECTION('',(0.,0.,1.));
#335=DIRECTION('',(1.,0.,0.));
#336=DIRECTION('',(0.,1.,0.));
#337=DIRECTION('',(1.,0.,0.));
#338=DIRECTION('',(0.,1.,0.));
#339=DIRECTION('',(1.,0.,0.));
#340=DIRECTION('',(0.,0.,-1.));
#341=DIRECTION('',(-1.,0.,0.));
#342=DIRECTION('',(0.,0.,-1.));
#343=DIRECTION('',(-1.,0.,0.));
#344=DIRECTION('',(0.,1.,0.));
#345=DIRECTION('',(0.,0.,1.));
#346=DIRECTION('',(0.,-1.,0.));
#347=DIRECTION('',(0.,-1.,0.));
#348=DIRECTION('',(-1.,0.,0.));
#349=DIRECTION('',(0.,0.,-1.));
#350=DIRECTION('',(-1.,0.,0.));
#351=DIRECTION('',(0.,0.,1.));
#352=DIRECTION('',(0.,0.,1.));
#353=DIRECTION('',(-1.,0.,0.));
#354=DIRECTION('',(0.,-1.,0.));
#355=DIRECTION('',(0.,0.,-1.));
#356=DIRECTION('',(0.,1.,0.));
#357=DIRECTION('',(0.,1.,0.));
#358=DIRECTION('',(0.,0.,1.));
#359=DIRECTION('',(1.,0.,0.));
#360=DIRECTION('',(-1.,0.,0.));
#361=DIRECTION('',(0.,0.,1.));
#362=DIRECTION('',(-1.,0.,0.));
#363=DIRECTION('',(0.,0.,1.));
#364=DIRECTION('',(-1.,0.,0.));
#365=DIRECTION('',(0.,0.,1.));
#366=DIRECTION('',(-1.,0.,0.));
#367=DIRECTION('',(0.,0.,1.));
#368=DIRECTION('',(-1.,0.,0.));
#369=DIRECTION('',(0.,0.,1.));
#370=DIRECTION('',(-1.,0.,0.));
#371=DIRECTION('',(0.,0.,1.));
#372=DIRECTION('',(-1.,0.,0.));
#373=DIRECTION('',(0.,0.,1.));
#374=DIRECTION('',(-1.,0.,0.));
#375=DIRECTION('',(0.,0.,1.));
#376=DIRECTION('',(1.,0.,0.));
#377=DIRECTION('',(0.,0.,1.));
#378=DIRECTION('',(-1.,0.,0.));
#379=DIRECTION('',(0.,0.,1.));
#380=DIRECTION('',(-1.,0.,0.));
#381=DIRECTION('',(0.,0.,1.));
#382=DIRECTION('',(-1.,0.,0.));
#383=DIRECTION('',(0.,0.,1.));
#384=DIRECTION('',(1.,0.,0.));
#385=DIRECTION('',(0.,0.,1.));
#386=DIRECTION('',(-1.,0.,0.));
#387=DIRECTION('',(0.,0.,1.));
#388=DIRECTION('',(-1.,0.,0.));
#389=DIRECTION('',(0.,0.,1.));
#390=DIRECTION('',(-1.,0.,0.));
#391=DIRECTION('',(0.,0.,1.));
#392=DIRECTION('',(-1.,0.,0.));
#393=DIRECTION('',(0.,0.,1.));
#394=DIRECTION('',(-1.,0.,0.));
#395=DIRECTION('',(0.,0.,1.));
#396=DIRECTION('',(1.,0.,0.));
#397=DIRECTION('',(0.,0.,1.));
#398=DIRECTION('',(-1.,0.,0.));
#399=DIRECTION('',(0.,0.,1.));
#400=DIRECTION('',(-1.,0.,0.));
#401=DIRECTION('',(0.,0.,1.));
#402=DIRECTION('',(1.,0.,0.));
#403=DIRECTION('',(0.,0.,1.));
#404=DIRECTION('',(-1.,0.,0.));
#405=DIRECTION('',(0.,0.,1.));
#406=DIRECTION('',(-1.,0.,0.));
#407=DIRECTION('',(0.,0.,1.));
#408=DIRECTION('',(0.,-1.,0.));
#409=DIRECTION('',(0.,1.,0.));
#410=DIRECTION('',(1.,0.,0.));
#411=DIRECTION('',(0.,1.,0.));
#412=DIRECTION('',(0.,-1.,0.));
#413=DIRECTION('',(0.,0.,-1.));
#414=DIRECTION('',(0.,1.,0.));
#415=DIRECTION('',(1.,0.,0.));
#416=DIRECTION('',(0.,1.,0.));
#417=DIRECTION('',(0.,0.,1.));
#418=DIRECTION('',(0.,-1.,0.));
#419=DIRECTION('',(0.,0.,-1.));
#420=CARTESIAN_POINT('',(0.,0.,0.));
#421=CARTESIAN_POINT('',(0.999999999999999,7.,-7.));
#422=CARTESIAN_POINT('',(1.07053367989832,7.,-6.505));
#423=CARTESIAN_POINT('',(0.929466320101675,7.,-6.505));
#424=CARTESIAN_POINT('',(1.,7.,-6.01));
#425=CARTESIAN_POINT('',(0.,7.,0.));
#426=CARTESIAN_POINT('',(0.,7.,0.));
#427=CARTESIAN_POINT('',(0.,7.,-13.));
#428=CARTESIAN_POINT('',(2.,7.,0.));
#429=CARTESIAN_POINT('',(2.,7.,0.));
#430=CARTESIAN_POINT('',(2.,7.,0.));
#431=CARTESIAN_POINT('',(2.,7.,-13.));
#432=CARTESIAN_POINT('',(2.,7.,-13.));
#433=CARTESIAN_POINT('',(2.,7.,0.));
#434=CARTESIAN_POINT('',(0.,7.,-13.));
#435=CARTESIAN_POINT('',(0.,0.,-13.));
#436=CARTESIAN_POINT('',(2.,7.,-13.));
#437=CARTESIAN_POINT('',(2.,0.,-13.));
#438=CARTESIAN_POINT('',(2.,0.,-13.));
#439=CARTESIAN_POINT('',(2.,7.,-13.));
#440=CARTESIAN_POINT('',(0.,0.,-13.));
#441=CARTESIAN_POINT('',(0.,0.,0.));
#442=CARTESIAN_POINT('',(2.,0.,-13.));
#443=CARTESIAN_POINT('',(2.,0.,0.));
#444=CARTESIAN_POINT('',(2.,0.,0.));
#445=CARTESIAN_POINT('',(2.,0.,-13.));
#446=CARTESIAN_POINT('',(0.,0.,0.));
#447=CARTESIAN_POINT('',(2.,0.,0.));
#448=CARTESIAN_POINT('',(2.,0.,0.));
#449=CARTESIAN_POINT('',(2.,4.5,-10.5));
#450=CARTESIAN_POINT('',(2.,4.5,-9.45));
#451=CARTESIAN_POINT('',(2.,4.5,-2.5));
#452=CARTESIAN_POINT('',(2.,4.5,-1.45));
#453=CARTESIAN_POINT('',(2.,0.,0.));
#454=CARTESIAN_POINT('',(0.,1.5,-7.5));
#455=CARTESIAN_POINT('',(0.,1.5,-7.25));
#456=CARTESIAN_POINT('',(0.,1.5,-5.5));
#457=CARTESIAN_POINT('',(0.,1.5,-5.25));
#458=CARTESIAN_POINT('',(0.,4.5,-10.5));
#459=CARTESIAN_POINT('',(0.,4.5,-8.7));
#460=CARTESIAN_POINT('',(0.,4.5,-2.5));
#461=CARTESIAN_POINT('',(0.,4.5,-0.7));
#462=CARTESIAN_POINT('',(0.,0.,0.));
#463=CARTESIAN_POINT('',(0.3,4.5,-2.5));
#464=CARTESIAN_POINT('',(0.3,4.5,-0.7));
#465=CARTESIAN_POINT('',(0.3,4.5,-2.5));
#466=CARTESIAN_POINT('',(0.3,4.5,-2.5));
#467=CARTESIAN_POINT('',(0.3,4.5,-1.45));
#468=CARTESIAN_POINT('',(0.3,4.5,-2.5));
#469=CARTESIAN_POINT('',(0.3,4.5,-10.5));
#470=CARTESIAN_POINT('',(0.3,4.5,-8.7));
#471=CARTESIAN_POINT('',(0.3,4.5,-10.5));
#472=CARTESIAN_POINT('',(0.3,4.5,-10.5));
#473=CARTESIAN_POINT('',(0.3,4.5,-9.45));
#474=CARTESIAN_POINT('',(0.3,4.5,-10.5));
#475=CARTESIAN_POINT('',(2.,4.5,-10.5));
#476=CARTESIAN_POINT('',(2.,4.5,-2.5));
#477=CARTESIAN_POINT('',(0.05,1.5,-5.5));
#478=CARTESIAN_POINT('',(0.05,1.5,-5.25));
#479=CARTESIAN_POINT('',(0.05,1.5,-5.5));
#480=CARTESIAN_POINT('',(0.05,1.5,-5.5));
#481=CARTESIAN_POINT('',(0.05,1.5,-7.5));
#482=CARTESIAN_POINT('',(0.05,1.5,-7.25));
#483=CARTESIAN_POINT('',(0.05,1.5,-7.5));
#484=CARTESIAN_POINT('',(0.05,1.5,-7.5));
#485=CARTESIAN_POINT('',(0.929466320101675,17.,-6.505));
#486=CARTESIAN_POINT('',(0.929466320101675,27.,-6.505));
#487=CARTESIAN_POINT('',(0.999999999999999,27.,-7.));
#488=CARTESIAN_POINT('',(1.07053367989832,27.,-6.505));
#489=CARTESIAN_POINT('',(1.07053367989832,17.,-6.505));
#490=CARTESIAN_POINT('',(0.999999999999999,27.,-7.));
#491=CARTESIAN_POINT('',(1.,27.,-6.01));
#492=CARTESIAN_POINT('',(0.999999999999999,27.,-7.));
#493=CARTESIAN_POINT('',(1.,27.,-6.01));
#494=MECHANICAL_DESIGN_GEOMETRIC_PRESENTATION_REPRESENTATION('',(#24),#495);
#495=(
GEOMETRIC_REPRESENTATION_CONTEXT(3)
GLOBAL_UNCERTAINTY_ASSIGNED_CONTEXT((#496))
GLOBAL_UNIT_ASSIGNED_CONTEXT((#502,#498,#497))
REPRESENTATION_CONTEXT('EX-FD41','TOP_LEVEL_ASSEMBLY_PART')
);
#496=UNCERTAINTY_MEASURE_WITH_UNIT(LENGTH_MEASURE(2.E-5),#502,
'DISTANCE_ACCURACY_VALUE','Maximum Tolerance applied to model');
#497=(
NAMED_UNIT(*)
SI_UNIT($,.STERADIAN.)
SOLID_ANGLE_UNIT()
);
#498=(
CONVERSION_BASED_UNIT('DEGREE',#500)
NAMED_UNIT(#499)
PLANE_ANGLE_UNIT()
);
#499=DIMENSIONAL_EXPONENTS(0.,0.,0.,0.,0.,0.,0.);
#500=PLANE_ANGLE_MEASURE_WITH_UNIT(PLANE_ANGLE_MEASURE(0.0174532925),#501);
#501=(
NAMED_UNIT(*)
PLANE_ANGLE_UNIT()
SI_UNIT($,.RADIAN.)
);
#502=(
LENGTH_UNIT()
NAMED_UNIT(*)
SI_UNIT(.MILLI.,.METRE.)
);
ENDSEC;
END-ISO-10303-21;
